Jdi na obsah Jdi na menu
 


indiana jones

12. 6. 2008

                                Indiana Jones                                  


Guitar (solo)



     W                   W                   W                
E||-------------------|-------------------|-------------------|
B||-------------------|-------------------|-------------------|
G||-------------------|-------------------|-------------------|
D||-------------------|-------------------|-------------------|
A||-------------------|-------------------|-------------------|
E||-------------------|-------------------|-------------------|


  H        Q    E  S S    S S H        S S E  S S    H        E.  S E  S S 
----------------0----1-|--3---8--------L--------0-|-----------------3----5-|
-----------------------|--------------------------|--6--------L------------|
-----------------------|-------------------7------|------------------------|
-----------------------|--------------------------|------------------------|
-----------------------|--------------------------|------------------------|
-----------------------|--------------------------|------------------------|


  S S  H        S S  E  S  S     Q     Q     E  E  E  S  S 
--7---13--------L------------|--------10----12-------------|
--------------------------12-|--13-------------------------|
--------------------14-------|---------------------9----10-|
-----------------------------|-----------------------------|
-----------------------------|-----------------------------|
-----------------------------|-----------------------------|


  S S H        S S  E  S  S     H        E.  S  E  S  S 
------8--------L---10----12-|--13--------L--------------|
--8-------------------------|---------------------------|
----------------------------|------------------12----12-|
----------------------------|---------------------------|
----------------------------|---------------------------|
----------------------------|---------------------------|


   Q     E  S  S  Q     E  S  S     Q     E  S  S  E   S S  E  S  S 
--12-------------12-------------|--12-------------12----------------|
--13----15-------13----15-------|--13----15-------13--15------------|
--12----------12-12----------12-|--12----------12-12----------------|
--15-------------15-------------|--15-------------15-------14----15-|
--------------------------------|-----------------------------------|
--------------------------------|-----------------------------------|


   S S  H        S S  E  S  S     H        E.  S  E  S  S 
------------------------------|---------------------------|
-------13--------L------------|------------------------10-|
--12--------------------------|------------------12-------|
---------------------12----14-|--15--------L--------------|
------------------------------|---------------------------|
------------------------------|---------------------------|


   S S  H        S S  E  S  S     Q     Q     E  E  E  S  S 
-------13--------L------------|--------10----12-------------|
--12-----------------------12-|--13-------------------------|
---------------------14-------|---------------------9----10-|
------------------------------|-----------------------------|
------------------------------|-----------------------------|
------------------------------|-----------------------------|


  S S H        S S  E  S  S     H        E.  S  E  S  S 
------8--------L---10----12-|--13--------L--------------|
--8-------------------------|---------------------------|
----------------------------|------------------12----12-|
----------------------------|---------------------------|
----------------------------|---------------------------|
----------------------------|---------------------------|


   Q     E  S  S  Q     E  S  S     Q     E  S  S  E   S Q    S 
--12-------------12-------------|--12-------------12------------|
--13----15-------13----15-------|--13----15-------13--15--------|
--12----------12-12----------12-|--12----------12-12------------|
--15-------------15-------------|--15-------------15------------|
--------------------------------|-------------------------------|
--------------------------------|-------------------------------|


  W                   W                   W                   W                
-------------------|-------------------|-------------------|-------------------|
-------------------|-------------------|-------------------|-------------------|
-------------------|-------------------|-------------------|-------------------|
-------------------|-------------------|-------------------|-------------------|
-------------------|-------------------|-------------------|-------------------|
-------------------|-------------------|-------------------|-------------------|


  W                   W                   W                
-------------------|-------------------|-------------------|
-------------------|-------------------|-------------------|
-------------------|-------------------|-------------------|
-------------------|-------------------|-------------------|
-------------------|-------------------|-------------------|
-------------------|-------------------|-------------------|


  H        Q     E  S  S     H        E.  S E  S S 
-------------------------|-------------------------|
-------------------------|-----------------------6-|
----------------------12-|--10--------L-----7------|
----------------14-------|-------------------------|
-------------------------|-------------------------|
-------------------------|-------------------------|


  T T X T. T X  Q.     S. X S T E  S S    H        E.  S E  S S 
--0-----3------12------L--L----------3-|--1--------L----------1-|
--------------------------------5------|-----------------3------|
---------------------------------------|------------------------|
---------------------------------------|------------------------|
---------------------------------------|------------------------|
---------------------------------------|------------------------|


  T T X T. T X Q.     S. X S T E  S S    H        E.  S E  S S 
-------------------------------0----3-|--1--------L----------1-|
--4-----3------1------L--L------------|-----------------3------|
--------------------------------------|------------------------|
--------------------------------------|------------------------|
--------------------------------------|------------------------|
--------------------------------------|------------------------|


  T T X T. T X  H        S X  E  S  S 
--0-----3------12------------10----12-|
--------------------------------------|
--------------------------------------|
--------------------------------------|
--------------------------------------|
--------------------------------------|


   S S  S  S  S S  S S  S  S  S S  S S  S  S     H.           T S T  S  S 
--13--------------13--------------13---------|--11------------L-----------|
--15--------------15--------------15---16-15-|--13------------L-----13-13-|
--15---15-14-15---15---15-14-15---15---------|--13------------L-----------|
---------------------------------------------|----------------------------|
---------------------------------------------|----------------------------|
---------------------------------------------|----------------------------|


   S S  S  S  S S  S S  S  S  S S  S S  S  S     H.           T S T  S  S 
--13--------------13--------------13---------|--11------------L-----------|
--15--------------15--------------15---16-15-|--13------------L-----13-13-|
--15---15-14-15---15---15-14-15---15---------|--13------------L-----------|
---------------------------------------------|----------------------------|
---------------------------------------------|----------------------------|
---------------------------------------------|----------------------------|


   S S  S  S  S S  S S  S  S  S S  S S  S  S 
--13--------------13--------------13---------|
--15--------------15--------------15---16-15-|
--15---15-14-15---15---15-14-15---15---------|
---------------------------------------------|
---------------------------------------------|
---------------------------------------------|


   S S  S  S  S S  S S  S  S  S S  S S  S  S     W                
--11--------------11--------------11---11-13-|--15----------------|
--13--------------13--------------13---13-15-|--17----------------|
--13---13-12-13---13---13-12-13---13---13-13-|--17----------------|
---------------------------------------------|--------------------|
---------------------------------------------|--------------------|
---------------------------------------------|--------------------|


  H        E  E  E  S S    S S H        S S E  S S    H        E.  S E  S S 
--L--------L------------|--3---8--------L----------|-----------------3----5-|
--L--------L-----5----6-|--5---8--------L--------5-|--6--------L-----0------|
--L--------L------------|------9--------L---7------|--5--------L----------5-|
------------------------|------------------------5-|--7--------L------------|
------------------------|-------------------8------|------------------------|
------------------------|--------------------------|------------------------|


  S S  H        S S  E  S S    Q     Q     E  E   E  S  S 
--7---13--------L---------7-|--8----10----12------0-------|
------13--------L---10------|--------8----13--------------|
--7---14--------L---------7-|--9-----------------------10-|
--------------------10------|--------------------10----12-|
----------------------------|-----------------------------|
----------------------------|-----------------------------|


  S S H        S S  E  S  S     H        E.  S  E  S  S 
--0---8--------L---10----12-|--13--------L--------------|
--8---8--------L---12----13-|--14--------L--------------|
------9--------L---12----12-|--13--------L-----12----12-|
----------------------------|---------------------------|
----------------------------|---------------------------|
----------------------------|---------------------------|


   Q     E  S  S  Q     E  S  S     Q     E  S  S  Q     E  S  S 
--12-------------12-------------|--12-------------13----12----10-|
--13----15-------13----15-------|--13----15-------13----12----12-|
--12----------12-12----------12-|--12----------12-12----12----12-|
--15-------------15-------------|--15-------------15----14----12-|
--------------------------------|--------------------------------|
--------------------------------|--------------------------------|


   Q     E  S  S  H           H        S. E  T E  S S 
--13----12----10-----------|-------------------1----2-|
--13----12----12-13--------|--L--------L--------------|
--12-----------------------|--------------------------|
--10-----------------------|--------------------------|
---------------------------|--------------------------|
---------------------------|--------------------------|


  S S H        S S E  S S    H        E.  S E  S S 
--4---9--------L----------|-----------------4----6-|
------------------------6-|--7--------L------------|
-------------------8------|------------------------|
--------------------------|------------------------|
--------------------------|------------------------|
--------------------------|------------------------|


  S S  H        S S  E  S  S     Q     Q     E  E   E  S  S 
--8---14--------L------------|--------11----13--------------|
--------------------------13-|--14--------------------------|
--------------------15-------|---------------------10----11-|
-----------------------------|------------------------------|
-----------------------------|------------------------------|
-----------------------------|------------------------------|


  S S  H        S S  E  S  S     H        E  E   E  S  S 
-------9--------L---11----13-|--14--------L--------------|
--9----9--------L------------|--15--------L--------------|
------10--------L------------|--14--------L-----13----13-|
-----------------------------|---------------------------|
-----------------------------|---------------------------|
-----------------------------|---------------------------|


   Q     E  S  S  Q     E  S  S     Q     E  S  S  Q     E  S  S 
--13-------------13-------------|--13-------------14----13----11-|
--14----16-------14----16-------|--14----16-------14----13----13-|
--13----------13-13----------13-|--13----------13-13----13----13-|
--16-------------16-------------|--16-------------16----15----13-|
--------------------------------|--------------------------------|
--------------------------------|--------------------------------|


   Q     E  S  S  H           H        S. E  T S S S S 
--14----13----11-----------|---------------------------|
--14----13----13-14--------|--L--------L-------2-2-2---|
--13-----------------------|---------------------------|
--11-----------------------|---------------------------|
---------------------------|---------------------------|
---------------------------|---------------------------|


  H        E  E  S S S S    H        E  E  S S S S    H.           E  S S 
--2--------L-----2---2-3-|--4--------L-------------|--2---------------2-3-|
-------------------------|-----------------2-2-2---|----------------------|
-------------------------|-------------------------|----------------------|
-------------------------|-------------------------|----------------------|
-------------------------|-------------------------|----------------------|
-------------------------|-------------------------|----------------------|


  H        E  E  S S S S     H        E  E   E  S  S 
--4--------L-----9-9-9---|--12--------L--------------|
-------------------------|--14--------L-----14----14-|
-------------------------|--14--------L--------------|
-------------------------|--18--------L--------------|
-------------------------|---------------------------|
-------------------------|---------------------------|


   Q.     S S  Q.     S S     W                
--14------L---11------L---|--16----------------|
--16------L---12------L---|--18----------------|
--16------L---15------L---|--18----------------|
--20------L---16------L---|--22----------------|
--------------------------|--------------------|
--------------------------|--------------------|


  Q     S  S  S  S  E  Q    E   
-------------------------------||
-------------------------------||
-------------------------------||
-------------------------------||
-------16-16-16-16-16----------||
-------------------------------||